Selasa, 11 Oktober 2011

SID - Pulang lirik cord guitar ex:chaunk

e|------------------------------------------------------------------|



B|------------------------------------------------------------------|



G|------------------------------------------------------------------|



D|------------------------------------------------------------------|



A|--22--22--22-02---22--22--22-0----22--22--22-02---22--22--22-02---|



E|-0--30--30--3--320--30--30--3----0--30--30--3--320--30--30--3--32-|



e|----------------------------------------------------------------------------|



B|----------------------------------------------------------------------------|



G|---------------------------------------------------4--5424-2224--5424--777--|



D|--22-022-3-2-022---22-022-3-2-022------------------4--5424-2224--5424--7772-|



A|-0--3---3-------320--3---3-------32-22--22--22-02--2--3202-0002--3202--5552-|



E|-----------------------------------0--30--30--3--32-----------------------0-|



e|--------------------------|



B|--------------------------|



G|----------------------445-|



D|-22-0--------542222222445-|



A|---3-330200-0542222222223-|



E|-----------0-320000000----|





C5

di tempat ini ku bermain


E5

di ruang ini di halaman ini


C5

dan di tempat ini ku berdiri


E5

di alam ini gelap bumi ini


A5
F5

kepengatan dengan 
penuh kemarahan


C5
G5

hanya tangis dan 
penuh harapan


A5
F5

bahagia yang ku hara
p datang


C5
yang per
nah datang


G5
dan tak mungki
n datang


F5
dan ku ingin 
pulang


C5
dengan cahaya yang 
benderang


F5
dan kebebasan yang
 sempurna


D5
G5
kan ku tinggalkan tempat ya
ng telah ku singgah 
selamanya


C5
D5
penan
tian...



C5

di malam yang sesunyi ini


E5

malaikat bernyanyi iblis pun menari


C5

tak ada tempat yang seperti ini


E5

kebenaran hakiki yang tak ada pasti


C5
D5
ku b
ertahan di tempat 
ini


E5
F5
G5
C5
malai
kat malaikat teman
i hati 
ini yang 
sunyi


D5
E5
aku ber
nyanyi seti
tik harapan


F5
G5
C5
yang 
sudah ku 
dapa
ti

Solo Guitar


e|-888888887777777777777777--------88888888888888887777777788888888-|



B|-8888888888888888888888888888888888888888888888888888888888888888-|


G|-------------------------77777777---------------------------------|
D|------------------------------------------------------------------|
A|------------------------------------------------------------------|
E|------------------------------------------------------------------|




PM....


e|----78--7--7--7-------78--7--7--7/107-------78--7--7--7-------78--7--7--7-|
B|-810-----10------8-810-----10------------810-----10------8-810-----10-----|
G|-------------------------------------------------------------------------|
D|-------------------------------------------------------------------------|
A|-------------------------------------------------------------------------|
E|-------------------------------------------------------------------------|




PM....


e|-------------------------|
B|-------------------------|



G|-44444444444444444444444-|

D|-44444444444444444444444-|

A|-22222222222222222222222-|


E|-------------------------|




cheers


eX: chaunk sebastyan



Tidak ada komentar:

Posting Komentar